Текст песни
Bullet for My Valentine - Intro

Перевод песни
Bullet for My Valentine - Intro

Отличная инструменталка, аккорды воть:

Основной риф (Гитара с 0:43) x4
=========
-------------------|
-------------------|
-------------7-5-7-| x2
----8-7-8----------|
-------------------|
-5---------5-------|

----------------------------------------|
----------------------------------------|
-----3-2-3-----3-2-------3-2-3----3/5-3-|
-------------------3--------------------|
----------------------------------------|
-5/1---------1---------1--------1-------|

(1:07) Вступает 2я гитара; (играть x2)

-----------15-13-15------------15-13-15-|
-15-13-15------------15-13-15-----------|
----------------------------------------|
----------------------------------------|
----------------------------------------|
----------------------------------------|

-15-13-15--15-13-----15-13-15--15-15/17-15-|
-----------------15------------------------|
-------------------------------------------|
-------------------------------------------|
-------------------------------------------|
Источник teksty-pesenok.ru
-------------------------------------------|

Solo (1:31) (Гитара 1/2 Играет основной риф x3)
====
------------------------------------------------|
-----10~---8-10-11--8-10-11---------------------|
---7-------------------------10--10-12-10-12~~-| 2x
-5----------------------------------------------|
------------------------------------------------|
------------------------------------------------|

---------------/22~~~//-|
-/16----15//0-----------|
------------------------|
------------------------|
------------------------|
------------------------|

Outro
=====
----------------------------------------------------|
----------------------------------------------------|
-----------------------------------5--------5-------|
---7-7h8-7----7-7h8--7----7-7h8-7----7-8-7----7-----|
------------------------------------------------8-5-|
-5----------5-----------5---------------------------|



-----------------------------------5--------5----------|
---7-7h8-7----7-7h8--7----7-7h8-7----7-8-7----7--------|
------------------------------------------------8-5----|
-5----------5-----------5---------------------------0~-|

Excellent instrumentals chords vot:

The main riff (with Guitar 0:43) x4
=========
------------------- |
------------------- |
------------- 7-5-7- | x2
---- 8-7-8 ---------- |
------------------- |
-5 5 --------- ------- |

---------------------------------------- |
---------------------------------------- |
----- 3-2-3 ----- 3-2-3 3-2 ------- ---- 3 / 5-3- |
3 ------------------- -------------------- |
---------------------------------------- |
-5/1 1 --------- --------- -------- 1 1 ------- |

(1:07) Enters 2nd guitar; (Play x2)

----------- 15-13-15 ------------ 15-13-15- |
-15-13-15 ------------ 15-13-15 ----------- |
---------------------------------------- |
---------------------------------------- |
---------------------------------------- |
---------------------------------------- |

-15-13-15--15-13 ----- 15-13-15--15-15 / 17-15- |
15 ----------------- ------------------------ |
------------------------------------------- |
------------------------------------------- |
------------------------------------------- |
Источник teksty-pesenok.ru
------------------------------------------- |

Solo (1:31) (1/2 guitar plays the main riff x3)
====
------------------------------------------------ |
10 ----- ~ --- 8-10-11--8-10-11 --------------------- |
--- 7 ------------------------- 10--10-12-10-12 ~~ - | 2x
-5----------------------------------------------|
------------------------------------------------|
------------------------------------------------|

---------------/22~~~//-|
-/16----15//0-----------|
------------------------|
------------------------|
------------------------|
------------------------|

Outro
=====
----------------------------------------------------|
----------------------------------------------------|
-----------------------------------5--------5-------|
---7-7h8-7----7-7h8--7----7-7h8-7----7-8-7----7-----|
------------------------------------------------8-5-|
-5----------5-----------5---------------------------|



-----------------------------------5--------5----------|
---7-7h8-7----7-7h8--7----7-7h8-7----7-8-7----7--------|
------------------------------------------------8-5----|
-5----------5-----------5---------------------------0~-|


Перевод песни добавил: Аноним

Исправить перевод песни

Поделитесь переводом песни: